0
SECTION
2
HEADER
9
$INSUNITS
70
4
9
$ACADVER
1
AC1014
9
$HANDSEED
5
FFFF
0
ENDSEC
0
SECTION
2
TABLES
0
TABLE
2
VPORT
5
8
100
AcDbSymbolTable
0
ENDTAB
0
TABLE
2
LTYPE
5
5
100
AcDbSymbolTable
0
LTYPE
5
14
100
AcDbSymbolTableRecord
100
AcDbLinetypeTableRecord
2
BYBLOCK
70
0
0
LTYPE
5
15
100
AcDbSymbolTableRecord
100
AcDbLinetypeTableRecord
2
BYLAYER
70
0
0
ENDTAB
0
TABLE
2
LAYER
5
2
100
AcDbSymbolTable
70
2
0
LAYER
5
50
100
AcDbSymbolTableRecord
100
AcDbLayerTableRecord
2
0
70
0
6
CONTINUOUS
0
ENDTAB
0
TABLE
2
STYLE
5
3
100
AcDbSymbolTable
70
1
0
STYLE
5
11
100
AcDbSymbolTableRecord
100
AcDbTextStyleTableRecord
2
STANDARD
70
0
0
ENDTAB
0
TABLE
2
VIEW
5
6
100
AcDbSymbolTable
70
0
0
ENDTAB
0
TABLE
2
UCS
5
7
100
AcDbSymbolTable
70
0
0
ENDTAB
0
TABLE
2
APPID
5
9
100
AcDbSymbolTable
70
2
0
APPID
5
12
100
AcDbSymbolTableRecord
100
AcDbRegAppTableRecord
2
ACAD
70
0
0
ENDTAB
0
TABLE
2
DIMSTYLE
5
A
100
AcDbSymbolTable
70
1
0
ENDTAB
0
TABLE
2
BLOCK_RECORD
5
1
100
AcDbSymbolTable
70
1
0
BLOCK_RECORD
5
1F
100
AcDbSymbolTableRecord
100
AcDbBlockTableRecord
2
*MODEL_SPACE
0
BLOCK_RECORD
5
1B
100
AcDbSymbolTableRecord
100
AcDbBlockTableRecord
2
*PAPER_SPACE
0
ENDTAB
0
ENDSEC
0
SECTION
2
BLOCKS
0
BLOCK
5
20
100
AcDbEntity
100
AcDbBlockBegin
2
*MODEL_SPACE
0
ENDBLK
5
21
100
AcDbEntity
100
AcDbBlockEnd
0
BLOCK
5
1C
100
AcDbEntity
100
AcDbBlockBegin
2
*PAPER_SPACE
0
ENDBLK
5
1D
100
AcDbEntity
100
AcDbBlockEnd
0
ENDSEC
0
SECTION
2
ENTITIES
0
LINE
5
100
100
AcDbEntity
8
0
100
AcDbLine
10
0
20
0
30
0
11
70
21
0
31
0
0
ARC
5
101
100
AcDbEntity
8
0
100
AcDbCircle
10
70
20
70
30
0
40
70
210
0
220
0
230
1
100
AcDbArc
50
-90
51
90
0
ARC
5
102
100
AcDbEntity
8
0
100
AcDbCircle
10
70
20
150
30
0
40
10
210
0
220
-0
230
1
100
AcDbArc
50
90
51
270
0
LINE
5
103
100
AcDbEntity
8
0
100
AcDbLine
10
70
20
160
30
0
11
250
21
160
31
0
0
LINE
5
104
100
AcDbEntity
8
0
100
AcDbLine
10
250
20
160
30
0
11
250
21
180
31
0
0
LINE
5
105
100
AcDbEntity
8
0
100
AcDbLine
10
250
20
180
30
0
11
70
21
180
31
0
0
ARC
5
106
100
AcDbEntity
8
0
100
AcDbCircle
10
70
20
150
30
0
40
30
210
0
220
-0
230
1
100
AcDbArc
50
90
51
270
0
ARC
5
107
100
AcDbEntity
8
0
100
AcDbCircle
10
69.999999999999986
20
70
30
0
40
50
210
0
220
0
230
1
100
AcDbArc
50
-90
51
89.999999999999986
0
LINE
5
108
100
AcDbEntity
8
0
100
AcDbLine
10
70
20
20
30
0
11
0
21
20
31
0
0
LINE
5
109
100
AcDbEntity
8
0
100
AcDbLine
10
0
20
20
30
0
11
0
21
0
31
0
0
LWPOLYLINE
5
110
100
AcDbEntity
8
0
100
AcDbPolyline
90
10
70
1
43
0.0
10
70
20
40
10
0
20
40
10
0
20
60
10
70
20
60
42
0.99999999999999989
10
70
20
80
42
-0.99999999999999989
10
70
20
220
10
250
20
220
10
250
20
200
10
70
20
200
42
0.99999999999999989
10
70
20
100
42
-0.99999999999999989
0
LWPOLYLINE
5
111
100
AcDbEntity
8
0
100
AcDbPolyline
90
4
70
1
43
0.0
10
200
20
140
10
180
20
140
10
180
20
0
10
200
20
0
0
LINE
5
112
100
AcDbEntity
8
0
100
AcDbLine
10
230
20
140
30
0
11
250
21
130
31
0
0
LINE
5
113
100
AcDbEntity
8
0
100
AcDbLine
10
230
20
0
30
0
11
250
21
10
31
0
0
SPLINE
5
114
100
AcDbEntity
8
0
100
AcDbSpline
70
4
71
5
72
21
73
15
74
0
42
0.000000001
43
0.0000000001
44
0.0000000001
40
0
40
0
40
0
40
0
40
0
40
0
40
0.10000000000000001
40
0.20000000000000001
40
0.30000000000000004
40
0.40000000000000002
40
0.5
40
0.59999999999999998
40
0.69999999999999996
40
0.79999999999999993
40
0.89999999999999991
40
1
40
1
40
1
40
1
40
1
40
1
41
1
41
1
41
1
41
1
41
1
41
1
41
1
41
1
41
1
41
1
41
1
41
1
41
1
41
1
41
1
10
250
20
130
30
0
10
249.24152390799469
20
127.6000000000105
30
0
10
247.79080907967153
20
122.80000000002859
30
0
10
245.81344281450566
20
115.60000000004675
30
0
10
243.58095723747508
20
106.00000000005454
30
0
10
241.50938610525122
20
94.000000000044409
30
0
10
240.22111036046812
20
82.000000000022624
30
0
10
239.78005286421256
20
69.999999999998735
30
0
10
240.22111036072477
20
57.99999999998002
30
0
10
241.50938610569963
20
45.999999999970328
30
0
10
243.5809572379892
20
33.999999999970342
30
0
10
245.81344281492673
20
24.399999999977933
30
0
10
247.79080907992301
20
17.199999999987512
30
0
10
249.24152390808626
20
12.399999999995558
30
0
10
250
20
10
30
0
0
SPLINE
5
115
100
AcDbEntity
8
0
100
AcDbSpline
70
4
71
5
72
21
73
15
74
0
42
0.000000001
43
0.0000000001
44
0.0000000001
40
0
40
0
40
0
40
0
40
0
40
0
40
0.10000000000000001
40
0.20000000000000001
40
0.30000000000000004
40
0.40000000000000002
40
0.5
40
0.59999999999999998
40
0.69999999999999996
40
0.79999999999999993
40
0.89999999999999991
40
1
40
1
40
1
40
1
40
1
40
1
41
1
41
1
41
1
41
1
41
1
41
1
41
1
41
1
41
1
41
1
41
1
41
1
41
1
41
1
41
1
10
230
20
140
30
0
10
229.24152390802823
20
137.20000000000272
30
0
10
227.7908090797624
20
131.60000000000741
30
0
10
225.81344281465266
20
123.20000000001204
30
0
10
223.58095723764293
20
112.00000000001404
30
0
10
221.50938610538202
20
98.000000000011696
30
0
10
220.22111036053127
20
84.000000000006011
30
0
10
219.78005286420739
20
69.999999999999702
30
0
10
220.22111036067261
20
55.999999999994607
30
0
10
221.50938610562872
20
41.999999999991864
30
0
10
223.58095723792536
20
27.999999999991651
30
0
10
225.81344281488325
20
16.799999999993659
30
0
10
227.79080907989979
20
8.3999999999963713
30
0
10
229.24152390807825
20
2.7999999999987031
30
0
10
230
20
0
30
0
0
LWPOLYLINE
5
116
100
AcDbEntity
8
0
100
AcDbPolyline
90
4
70
1
43
0.0
10
320
20
140
10
300
20
140
10
300
20
0
10
320
20
0
0
LWPOLYLINE
5
117
100
AcDbEntity
8
0
100
AcDbPolyline
90
4
70
1
43
0.0
10
360
20
140
10
340
20
140
10
340
20
0
10
360
20
0
0
LWPOLYLINE
5
118
100
AcDbEntity
8
0
100
AcDbPolyline
90
4
70
1
43
0.0
10
360
20
160
10
300
20
160
10
300
20
180
10
360
20
180
0
LWPOLYLINE
5
119
100
AcDbEntity
8
0
100
AcDbPolyline
90
4
70
1
43
0.0
10
360
20
200
10
300
20
200
10
300
20
220
10
360
20
220
0
LWPOLYLINE
5
120
100
AcDbEntity
8
0
100
AcDbPolyline
90
4
70
1
43
0.0
10
440
20
0
10
420
20
0
10
420
20
140
10
440
20
140
0
LWPOLYLINE
5
121
100
AcDbEntity
8
0
100
AcDbPolyline
90
4
70
1
43
0.0
10
480
20
0
10
460
20
0
10
460
20
140
10
480
20
140
0
LWPOLYLINE
5
122
100
AcDbEntity
8
0
100
AcDbPolyline
90
4
70
1
43
0.0
10
500
20
220
10
400
20
220
10
400
20
200
10
500
20
200
0
LWPOLYLINE
5
123
100
AcDbEntity
8
0
100
AcDbPolyline
90
4
70
1
43
0.0
10
500
20
180
10
400
20
180
10
400
20
160
10
500
20
160
0
ENDSEC
0
SECTION
2
OBJECTS
0
DICTIONARY
5
C
100
AcDbDictionary
3
ACAD_GROUP
350
D
3
ACAD_MLINESTYLE
350
17
0
DICTIONARY
5
D
100
AcDbDictionary
0
DICTIONARY
5
1A
330
C
100
AcDbDictionary
0
DICTIONARY
5
17
100
AcDbDictionary
0
ENDSEC
0
EOF
